Kunci Gitar Bubbles by System Of a Down Chord

Posted on
Chord Bubbles

Bubbles adalah sebuah karya musikal dari Band Rock n roll terkenal System Of a Down.

A
pm........
1:---------|------------------------------------|------------------------------------|2:---------|------------------------------------|------------------------------------|3:---------|------------------------------------|------------------------------------|4:-6-6-6-6-|-3-5-5-5--3-5-5-5--3-5-5-5--3-5-5-5-|-3-5-5-5--3-5-5-5--3-5-5-5--6-6-6-6-|5:-6-6-6-6-|-3-5-5-5--3-5-5-5--3-5-5-5--3-5-5-5-|-3-5-5-5--3-5-5-5--3-5-5-5--6-6-6-6-|6:-6-6-6-6-|-3-5-5-5--3-5-5-5--3-5-5-5--3-5-5-5-|-3-5-5-5--3-5-5-5--3-5-5-5--6-6-6-6-|                                                                   pm.....
1:------------------------------------|------------------------------------|2:------------------------------------|------------------------------------|3:------------------------------------|------------------------------------|4:-3-5-5-5--3-5-5-5--3-5-5-5--3-5-5-5-|-3-5-5-5--3-5-5-5--3-5-5-5--6-6-6-6-|5:-3-5-5-5--3-5-5-5--3-5-5-5--3-5-5-5-|-3-5-5-5--3-5-5-5--3-5-5-5--6-6-6-6-|6:-3-5-5-5--3-5-5-5--3-5-5-5--3-5-5-5-|-3-5-5-5--3-5-5-5--3-5-5-5--6-6-6-6-|

B
pm.............................
1:------------------------------|2:------------------------------|3:------------------------------|4:-3-5---5-3--5---3-5---5-6-6-6-|5:-3-5---5-3--5---3-5---5-6-6-6-|6:-3-5---5-3--5---3-5---5-6-6-6-|

C
1:-----------------------|---------------------------|2:-----------------------|---------------------------|3:-55-77-88-77-55-444444-|-55-77-88-77-1010-88-77-88-|4:-----------------------|---------------------------|5:-----------------------|---------------------------|6:-----------------------|---------------------------|

D
1:------------------------------------|2:------------------------------------|3:------------------------------------|4:-3-5-5-5--3-5-5-5--3-5-5-5--6-6-6-6-|
5:-3-5-5-5--3-5-5-5--3-5-5-5--6-6-6-6-|
6:-3-5-5-5--3-5-5-5--3-5-5-5--6-6-6-6-|


E
1:-----------------------------|2:-----------------------------|3:-----------------------------|4:-----------------------------|5:-----------------------------|6:-3-5--5-3--5---3-5---5-6-6-6-|

F
1:---|
2:---|
3:---|
4:-5-|
5:-5-|
6:-5-|


G
1:------------|2:------------|3:------------|4:------------|5:------------|6:-3-8--5-6-5-|


H
pm..........................
1:---------------------------|2:---------------------------|3:-55-77-88-77-1010-88-77-88-|
4:---------------------------|5:---------------------------|6:---------------------------|

I
1:-----------------------------|2:-----------------------------|3:-----------------------------|4:-----------------------6-6-6-|5:-----------------------6-6-6-|6:-3-5--5-3--5---3-5---5-6-6-6-|


ORDER:
=====

A
B 2x
C 4x
D 2x
B 2x
C 6x
D 2x
B 2x
E 2x
F 4x
G 7x
H
G 7x
H
D 4x
B 2x
E
I

 

Bubbles

Kunci gitar lagu Bubbles diatas sudah dimodifikasi dengan chord yg lebih mudah.