Kunci Gitar Green is the color by Pink Floyd Chord

Posted on
Chord Green is the color

Green is the color adalah sebuah karya musikal dari Band Rock n roll terkenal Pink Floyd.

Solo:
   G                               C
E|-----------------------------------------------------------|
B|-----------------------------------------------------------|
G|-------------------------2/4----2----0--------0-2-0----0---|
D|------------------------------------------2---------2------|
A|-----------------------------------------------------------|
E|-----------------------------------------------------------|
   G                                 C
E|---------------------------------------3---3h5---3-----|
B|----------------------3--3h5p3--3h5-----------------5--|
G|------0h2---0----2/4-----------------------------------|
D|0--2---------------------------------------------------|
A|-------------------------------------------------------|
E|-------------------------------------------------------|
   G               Bm          C            Em
E|------------------------------------------------------|
B|3----3--5p3------3------------------------------------|
G|-------------4-----4--2-----0----0h2--0----------0h2--|
D|-------------------------2------------------0h2-------|
A|------------------------------------------------------|
E|------------------------------------------------------|
   D
E|-----------------------------------------------------------|
B|-----------------------------------------------------------|
G|0--------0--0-----------------------0----------------------|
D|---------------2--0h2p0--------0h2-------0h2p0-------0--2--|
A|--------------------------------------------------2--------|
E|-----------------------------------------------------------|

G                     C
Heavy hung the canopy blue
G		        C
Shade my eyes and I can see you
G		 Bm         C               Em             D
White is the light that shines through the dress that you wore

G		           C
She lay in the shadow of the wave
G			      C
Hazy were the visions of her playing
G	          Bm         C	             Em        D
Sunlight in her eyes, but moonshine made her blind every time

G			    C
Green is the color of her kind
G			    C
Quickness of the eye deceives the mind
G	        Bm            C               Em    D
Envy is the bond between the hopeful and the damned

( G  C  G  C  G  C  D )

 

Green is the color

Kunci gitar laguĀ Green is the color diatas sudah dimodifikasi dengan chord yg lebih mudah.