Kunci Gitar Presence of the lord by Eric Clapton Chord

Posted on
Chord Presence of the lord

Presence of the lord adalah sebuah karya musikal dari Band Rock n roll terkenal Eric Clapton.

(intro)

                                    b5
g|----------------|----------------|----------------|----------------|
d|----------------|----------------|4-4-4-4-4-4-4-4-|----------------|
a|----------------|----------------|2-2-2-2-2-2-2-2-|4-4-4-4-6-6-6-6-|
e|----------------|----------------|----------------|----------------|

(verso)

(?hey, mom, there?s something...?)
  b5               f#5              g#5              e5
g|----------------|----------------|----------------|----------------|
d|----------------|----------------|----------------|----------------|
a|2-2-2-2-2-2-2-2-|----------------|----------------|----------------|
e|----------------|2-2-2-2-2-2-2-2-|4-4-4-4-4-4-4-4-|0-0-0-0-0-0-0-0-|
(2x)

(?you used to read me stories...?)
  b5               c#5              g#5              e5
g|----------------|----------------|----------------|----------------|
d|----------------|----------------|----------------|----------------|
a|2-2-2-2-2-2-2-2-|4-4-4-4-4-4-4-4-|----------------|----------------|
e|----------------|----------------|4-4-4-4-4-4-4-4-|0-0-0-0-0-0-0-0-|

(?we all know...?)
  b5               f#5              g#5              e5
g|----------------|----------------|----------------|----------------|
d|----------------|----------------|----------------|----------------|
a|2-2-2-2-2-2-2-2-|----------------|----------------|----------------|
e|----------------|2-2-2-2-2-2-2-2-|4-4-4-4-4-4-4-4-|0-0-0-0-0-0-0-0-|

(interludio)

  b5                 e5               g#5              e5
g|----------------|----------------|----------------|----------------|
d|----------------|----------------|----------------|----------------|
a|2-2-2-2-2---2-2-|2---------------|----------------|----------------|
e|----------------|--0-0-0-0---0-0-|0-4-4-4-4---4-4-|4-0-0-0-0---0-0-|

    b5               e5               g#5              e5
g|----------------|----------------|----------------|----------------|
d|----------------|----------------|----------------|----------------|
a|--2-2-2-2---2-2-|2---------------|----------------|----------------|
e|0---------------|--0-0-0-0---0-0-|0-4-4-4-4---4-4-|4-0-0-0-0---0-0-|

(verso)

(?what if people knew...?)
  b5               f#5              g#5              e5
g|----------------|----------------|----------------|----------------|
d|----------------|----------------|----------------|----------------|
a|2-2-2-2-2-2-2-2-|----------------|----------------|----------------|
e|----------------|2-2-2-2-2-2-2-2-|4-4-4-4-4-4-4-4-|0-0-0-0-0-0-0-0-|
(2x)

(?i know the c.i.a. would say...?)
  b5               c#5              g#5              e5
g|----------------|----------------|----------------|----------------|
d|----------------|----------------|----------------|----------------|
a|2-2-2-2-2-2-2-2-|4-4-4-4-4-4-4-4-|----------------|----------------|
e|----------------|----------------|4-4-4-4-4-4-4-4-|0-0-0-0-0-0-0-0-|

(?i wish someone would...?)
  b5               f#5              g#5              e5
g|----------------|----------------|----------------|----------------|
d|----------------|----------------|----------------|----------------|
a|2-2-2-2-2-2-2-2-|----------------|----------------|----------------|
e|----------------|2-2-2-2-2-2-2-2-|4-4-4-4-4-4-4-4-|0---------------|

(refrão)

(?up...?)
  b5                                f#5
g|----------------|----------------|----------------|----------------|
d|----------------|--------2-2-2-2-|----------------|----------------|
a|2-2-2-2-2-2-2-2-|2-2-2-2---------|----------------|----------------|
e|----------------|----------------|2-2-2-2-2-2-2-2-|2-2-2-2-2-2-2-2-|
(riff 2)

(?know it must be late...?)
  g#m                               e                               
g|----------------|----------------|----------------|----------------|
d|----------------|----------------|----------------|----------------|
a|----------------|----------------|----------------|----------------|
e|4-4-4-4-4-4-4-4-|4-4-4-4-2-2-2-2-|0-0-0-0-0-0-0-0-|0-0-0-0-0-0-0-0-|
(2x)

(?i?m not like you guys...?)
  f#               e5               b5
g|----------------|----------------|----------------|----------------|
d|----------------|----------------|4~~-------------|----------------|
a|----------------|----------------|2~~-------------|----------------|
e|2~~-------------|0~~-------------|----------------|----------------|

(?i?m not like you.?)
  f#5              e5
g|----------------|----------------|
d|----------------|----------------|
a|----------------|----------------|
e|2~~-------------|0~~-------------|

(interludio)

  b5                 e5               g#5              e5
g|----------------|----------------|----------------|----------------|
d|----------------|----------------|----------------|----------------|
a|2-2-2-2-2---2-2-|2---------------|----------------|----------------|
e|----------------|--0-0-0-0---0-0-|0-4-4-4-4---4-4-|4-0-0-0-0---0-0-|

    b5               e5               g#5              e5
g|----------------|----------------|----------------|----------------|
d|----------------|----------------|----------------|----------------|
a|--2-2-2-2---2-2-|2---------------|----------------|----------------|
e|0---------------|--0-0-0-0---0-0-|0-4-4-4-4---4-4-|4-0-0-0-0---0-0-|

(verso)

(?i am still the skeptic...?)
  b5               f#5              g#5              e5
g|----------------|----------------|----------------|----------------|
d|----------------|----------------|----------------|----------------|
a|2-2-2-2-2-2-2-2-|----------------|----------------|----------------|
e|----------------|2-2-2-2-2-2-2-2-|4-4-4-4-4-4-4-4-|0-0-0-0-0-0-0-0-|
(2x)

(?i got an injection...?)
  b5               c#5              g#5              e5
g|----------------|----------------|----------------|----------------|
d|----------------|----------------|----------------|----------------|
a|2-2-2-2-2-2-2-2-|4-4-4-4-4-4-4-4-|----------------|----------------|
e|----------------|----------------|4-4-4-4-4-4-4-4-|0-0-0-0-0-0-0-0-|

(?my best friend thinks...?)
  b5               f#5              g#5              e5
g|----------------|----------------|----------------|----------------|
d|----------------|----------------|----------------|----------------|
a|2-2-2-2-2-2-2-2-|----------------|----------------|----------------|
e|----------------|2-2-2-2-2-2-2-2-|4-4-4-4-4-4-4-4-|0---------------|

(refrão)

(?up...?)
  b5                                f#5
g|----------------|----------------|----------------|----------------|
d|----------------|--------2-2-2-2-|----------------|----------------|
a|2-2-2-2-2-2-2-2-|2-2-2-2---------|----------------|----------------|
e|----------------|----------------|2-2-2-2-2-2-2-2-|2-2-2-2-2-2-2-2-|

(riff 2x)

(?know it must be late...?)
  g#m                               e                               
g|----------------|----------------|----------------|----------------|
d|----------------|----------------|----------------|----------------|
a|----------------|----------------|----------------|----------------|
e|4-4-4-4-4-4-4-4-|4-4-4-4-2-2-2-2-|0-0-0-0-0-0-0-0-|0-0-0-0-0-0-0-0-|

(riff 2x)

(?i?m not like you guys.?)
  f#               e5               b5
g|----------------|----------------|----------------|----------------|
d|----------------|----------------|4~~-------------|----------------|
a|----------------|----------------|2~~-------------|----------------|
e|2~~-------------|0~~-------------|----------------|----------------|

(?i?m not like you.?)
  f#5              e5
g|----------------|----------------|
d|----------------|----------------|
a|----------------|----------------|
e|2~~-------------|0~~-------------|

(interludio)

  g#m                               f#5
g|----------------|----------------|----------------|----------------|
d|----------------|----------------|----------------|----------------|
a|----------------|----------------|----------------|----------------|
e|4-4-4-4-4-4-4-4-|4-4-4-4-4-4-4-4-|2-2-2-2-2-2-2-2-|2-2-2-2-2-2-2-2-|

  e5                                b5               f#5
g|----------------|----------------|----------------|----------------|
d|----------------|----------------|----------------|----------------|
a|----------------|----------------|2-2-2-2-2-2-2-2-|----------------|
e|0-0-0-0-0-0-0-0-|0-0-0-0-0-0-0-0-|----------------|2-2-2-2-2-2-2-2-|

  g#m                               f#5
g|----------------|----------------|----------------|----------------|
d|----------------|----------------|----------------|----------------|
a|----------------|----------------|----------------|----------------|
e|4-4-4-4-4-4-4-4-|4-4-4-4-4-4-4-4-|2-2-2-2-2-2-2-2-|2-2-2-2-2-2-2-2-|

  e5                                b5               f#5
g|----------------|----------------|----------------|----------------|
d|----------------|----------------|----------------|----------------|
a|----------------|----------------|2-2-2-2-2-2-2-2-|----------------|
e|0-0-0-0-0-0-0-0-|0-0-0-0-0-0-0-0-|----------------|2-2-2-2-2-2-2-2-|

daí

(?dark and scary...?)
  g#m                               f#5
g|----------------|----------------|----------------|----------------|
d|----------------|----------------|----------------|----------------|
a|----------------|----------------|----------------|----------------|
e|4-4-4-4-4-4-4-4-|4-4-4-4-4-4-4-4-|2-2-2-2-2-2-2-2-|2-2-2-2-2-2-2-2-|

(?explanation...?)
  e5                                b5               c#
g|----------------|----------------|----------------|----------------|
d|----------------|----------------|----------------|----------------|
a|----------------|----------------|2-2-2-2-2-2-2-2-|4-4-4-4-4-4-4-4-|
e|0-0-0-0-0-0-0-0-|0-0-0-0-0-0-0-0-|----------------|----------------|

(?nice to know...?)
  g#m/d#                            f#5
g|----------------|----------------|----------------|----------------|
d|----------------|----------------|----------------|----------------|
a|6-6-6-6-6-6-6-6-|6-6-6-6-6-6-6-6-|9-9-9-9-9-9-9-9-|9-9-9-9-9-9-9-9-|
e|----------------|----------------|----------------|----------------|

(?where?s my mother...?)
  e5                                b5               f#5
g|----------------|----------------|----------------|----------------|
d|----------------|----------------|----------------|4-4-4-4-4-------|
a|7-7-7-7-7-7-7-7-|7-7-7-7-7-7-7-7-|2-2-2-2-2-2-2-2-|----------------|
e|----------------|----------------|----------------|----------------|

(refrão)

(?up...?)
  b5                                f#5
g|----------------|----------------|----------------|----------------|
d|----------------|--------2-2-2-2-|----------------|----------------|
a|2-2-2-2-2-2-2-2-|2-2-2-2---------|----------------|----------------|
e|----------------|----------------|2-2-2-2-2-2-2-2-|2-2-2-2-2-2-2-2-|

riff 2x)

(?know it must be late...?)
  g#m                               e                               
g|----------------|----------------|----------------|----------------|
d|----------------|----------------|----------------|----------------|
a|----------------|----------------|----------------|----------------|
e|4-4-4-4-4-4-4-4-|4-4-4-4-2-2-2-2-|0-0-0-0-0-0-0-0-|0-0-0-0-0-0-0-0-|

(riff 2x)

(?i?m not like you guys.?)
  f#               e5               b5
g|----------------|----------------|----------------|----------------|
d|----------------|----------------|----------------|----------------|
a|----------------|----------------|2~~-------------|----------------|
e|2~~-------------|0~~-------------|----------------|----------------|

(?twelve majestic lies.?)
  f#               e5               b5
g|----------------|----------------|----------------|----------------||
D|----------------|----------------|4~~--(acabe com essa nota e deixe soar)-||
a|9~~-------------|7~~-------------|2~~-------------|----------------||
e|----------------|----------------|----------------|----------------||

 

Presence of the lord

Kunci gitar lagu Presence of the lord diatas sudah dimodifikasi dengan chord yg lebih mudah.